Olympic

piesne (247)

  texty (194) / preklady (1)
  akordy (179) / taby (24)
  noty (1) / slideshow (0)

články (149)
fotogaléria
diskusia
videá
diskografia
v obchode
odkazy
koncerty
sťahuj



pridaj vlastný článok

Tomáš Klus:
Hrady CZ hlásí: Tomáš Klus, Mandrage, Wanastowi Vjecy i Olympic - /**/ více tisc... - IREPORT


Olympic:
Olympic: Pták Rosomák (1969) - Olympic: Pták Rosomák (1969) - Foto: Supraphon Olympic: Pták Rosomák (1969)Foto: Sup... - rozhlas.cz


Olympic:
Olympic vzpomínal na Milana Peroutku - V pražské Malostranské besedě se vzpomínalo na Milana Peroutku. Kapela Olympic v sob... - novinky.cz


50 Cent:
Nové desky pro 19. týden 2014 - Vydáno: 04.05.2014 14:17 v sekci Nové desky - Tomáš Parkan a Petra Hubáčková Ačkoli... - musicserver.cz


Olympic:
Olympic ve veselém duchu vzpomínal na bývalého bubeníka Ferdu - Praha - Kapela Olympic dnes v zaplněné pražské Malostranské besedě vzpomínala na svého... - ceskenoviny.cz


Pavel Bobek:
Nautilus Zdeňka Rytíře (online album) - Hodnotenie: 10 / 10 Pošli na Facebook Pošli na Twitter Pošli na Googl... - server.sk


Olympic:
Zemřel textař mnoha slavných písní Zdeněk Rytíř - musicserver.c... - musicserver.cz


Olympic:
Olympic začal pracovat na nové desce - ... - musicserver.cz


Petr Janda:
Janda môže pokojne spávať: Záhada smrti bubeníka Peroutka - Janda môže pokojne spávať: Záhada smrti bubeníka Peroutka († 49) je vyriešená" width="458... - cas.sk


Aspm:
Hosťujúcim bubeníkom kapely Olympic bude Martin Vajgl - Vajgl nahradí v zostave Milana Peroutku, ktorý skonal 4. mája vo veku 49 rokov BRATISLAV...


 

Olympic

Fanúšikov: 37



A B C Č D E F G H CH I J K L Ľ M N O P Q R S Š T U V W X Y Z Ž



ako:
Olympic - Já (Soběctví)
Olympic - Já (Soběctví)

tlač

edituj
Pesničku videlo 7342 návštevníkov.

Kvalita tabov : bez hodnotenia
Hodnotilo ľudí: 0 ohodnoť aj ty
Prispievateľ:

Daamien

********************************************************************************
TITLE: JA (SOBECTVI)
FROM: OLYMPIC
TAB FROM: DAAMIAN@POBOX.SK, ONDRAKK@MARIHUANA.COM
DATE: 18. 03. 2004
********************************************************************************
Tunning: Standard E

Tab Symbols: p – pull off
h – hammer on
s – slide
b – full bend
r – released bend
PM – palm mutting

INTRO
Lead 1a
/–-3–- /–-3-- /–-3-- /–-3-– /–-3-– /–-3-– 4x
|-------------------------------------------------------13b15----|
|-18p15p11-18p15p11-18p15p11-18p15p11-18p15p11-18p15p11----------|
|----------------------------------------------------------------|
|----------------------------------------------------------------|
|----------------------------------------------------------------|
|----------------------------------------------------------------|

Lead 1b
/–-3-– /–-3-– /–-3-– /–-3-– /–-3-– /–-3-– 4x
|----------------------------------------------------------------|
|-18p15----18p15----18p15----18p15----18p15----18p15----18b20----|
|-------15-------15-------15-------15-------15-------15----------|
|----------------------------------------------------------------|
|----------------------------------------------------------------|
|----------------------------------------------------------------|
Prvú časť možno zahrať dvoma spôsobmi, oba znejú dobre, ja však odporúčam ten prvý, pri ktorom používajte tapping brnkátkom.

Lead 2
|------------------------------------------------------|
|-18b20-18-17-16-15------------------------------------|
|-------------------18-17-16--15-14-13-12-11-10-9-8----|
|------------------------------------------------------|
|------------------------------------------------------|
|------------------------------------------------------|


|----------------------------------------|
|----------------------------------------|
|-7-6-5-4-3-2-1-0------------------------|
|------------------4-3-2-1-0-------------|
|----------------------------4-3-2-------|
|-----------------------------------3----|










Fill 1
|-1s3---1s3----|
|-1s3---1s3----|
|--------------|
|--------------|
|--------------|
|--------------|
Toto sa hrá pred každou slohou



VERSE
Verse Riff 1
PM PM PM 3x PM PM
|-------------------------––| |––------------------------|
|------------------------–––| |–-------------------------|
|------------------------–––| |–--5-5-3-5-3-5-5-5-5-5----|
|-3s5-5-5-5-5-5-3-5-3-5-5–––| |---5-5-3-5-3-5-5-5-5-5----|
|-3s5-5-5-5-5-5-3-5-3-5-5---| |––––----------------------|
|---------------------------| |----–––––-----------------|

PM PM PM 3x PM PM
|-------------------------––| |––------------------------|
|------------------------–––| |–-------------------------|
|------------------------–––| |–--5-5-3-5-3-5-5-5-5-5----|
|-3s5-5-5-5-5-5-3-5-3-5-5–––| |---5-5-3-5-3-5-5-5-5-5----|
|-3s5-5-5-5-5-5-3-5-3-5-5---| |––––----------------------|
|---------------------------| |----–––––-----------------|


Verse Riff 2
PM| PM PM PM PM PM
|-----------------------------------------------------|
|-----------------------------------------------------|
|-4-3--------------------------7-7-5-7-5-7-7-7-7-7----|
|-4-3-5s7-7-7-7-7-7-5-7-5-7-7--7-7-5-7-5-7-7-7-7-7----|
|-----5s7-7-7-7-7-7-5-7-5-7-7-------------------------|
|-----------------------------------------------------|

PM| PM PM PM PM PM
|-----------------------------------------------------|
|-----------------------------------------------------|
|-4-3--------------------------7-7-5-7-5-7-7-7-7-7----|
|-4-3-5s7-7-7-7-7-7-5-7-5-7-7--7-7-5-7-5-7-7-7-7-7----|
|-----5s7-7-7-7-7-7-5-7-5-7-7-------------------------|
|-----------------------------------------------------|
Počúvajte nahrávku aby ste dostali pre to tlmenie správny cit


CHORUS
|----------------–––-------------------|
|---------------8––--------------------|
|-5---5---5-----7–--5---5---5-----7----|
|-5-5-5-5-5-5-3-5––-5-5-5-5-5-5-3-7----|
|-3-5-3-5-3-5-3-5–--3-5-3-5-3-5-3-5----|
|---3---3---3-1---––--3---3---3-1------|





SOLO
Toto sólo nie je úplne presne, lebo presne ho vie zahrať len jeden človek, ale je to dobrý základ doplnený o moju improvizáciu. Celé sólo je založené na jednoduchej improvizácii na najzákladnejšej bluesovej stupnici v harmónii G. Na konci tabulatúry uvádzam schému tejto stupnice.
|-------------------------------––--|------------------------------------|
|-4------------------------------––-|-4----------------------------------|
|-3b5-3-0-5-3-0-5-3-0-5-3-0-3b5r3-0-|-3b5-3-0-5-3-0-5-3--0-5-3-0-3b5r3––-|
|------------------------------––---|------------------------------------|
|--------------------------------––-|------------------------------------|
|--------------------------------––-|------------------------------------|


|--------------------------------------------------------------------------|
|-------------------3-6-3-----------3-----------3--------------------------|
|-----------3-5-5b7-------5-3---5b7---5-3---5b7---5-3-----------3-5---3----|
|-5-3---3-5-------------------5-----------5-----------5-3---3-5-----5------|
|-----5---------------------------------------------------5----------------|
|--------------------------------------------------------------------------|


|---------------------|---------------------|
|-----3-3-----3-3---3-|-----3-3-----3-3---3-|
|-5b7-----5b7-----5---|-5b7-----5b7-----5---|
|---------------------|---------------------|
|---------------------|---------------------|
|---------------------|---------------------|


|---------------------|---------------------|
|-----3-3-----3-3---3-|-----3-3-----3-3---3-|
|-5b7-----5b7-----5---|-5b7-----5b7-----5---|
|---------------------|---------------------|
|---------------------|---------------------|
|---------------------|---------------------|


|----------------------------------------|
|----------------------------------------|
|-5b7-5b7r5p3-5p3---3-------3-5-3---3----|
|-----------------5-----3-5-------5------|
|---------------------5------------------|
|----------------------------------------|


|------------------------------------------|
|------------------------------------------|
|-5b7-5b7r5p3---3-5-3-5b7-5-3---------3----|
|-------------5---------------5---3-5------|
|-------------------------------5----------|
|------------------------------------------|






|-6b8-6-3-------6b8-6-3-------6b8-6-3-------6b8-6-3----------|
|---------6-3-----------6-3-----------6-3-----------6-3------|
|-------------5-------------5-------------5-------------5----|
|------------------------------------------------------------|
|------------------------------------------------------------|
|------------------------------------------------------------|


|-------––---------------––-----------------––-----------|
|-6b8r6–--3---3---6b8r6––-3---3---6b8r6––-3--------------|
|---––--5---5---3---––--5---5---3---––--5---5-3----------|
|-----------––--------––--------------––--------5-3------|
|---------––------------––--------------––----------5----|
|-------------––----------––--------------––-------------|


|---------------------------------------------------|
|---------------------------------------------------|
|-------------3---5b7r5p3----------------------7----|
|-----3---3-5---5---------5--5--3--5--3--5--3--7----|
|-3-5---5--------------------5--3--5--3--5--3--5----|
|----------------------------3--1--3--1--3--1-------|
*******************Keybord solo


Toto je sólo, ktoré je hrané na klávesoch, ale môžete si ho zahrať aj na gitare, chce to trochu zručnosti, ale je to fakt sila.
G5 F5
|----19-22----19-22----19-22----19-22-----17-20----17-20----17-20----17-20----|
|-20-------20-------20-------20--------18-------18-------18-------18----------|
|-----------------------------------------------------------------------------|
|-----------------------------------------------------------------------------|
|-----------------------------------------------------------------------------|
|-----------------------------------------------------------------------------|

G5 F5
|----19-22----19-22----19-22----19-22-----17-20----17-20----17-20----17-20----|
|-20-------20-------20-------20--------18-------18-------18-------18----------|
|-----------------------------------------------------------------------------|
|-----------------------------------------------------------------------------|
|-----------------------------------------------------------------------------|
|-----------------------------------------------------------------------------|

G5 F5
|----19-22----19-22----19-22----19-22-----17-20----17-20----17-20----17-20----|
|-20-------20-------20-------20--------18-------18-------18-------18----------|
|-----------------------------------------------------------------------------|
|-----------------------------------------------------------------------------|
|-----------------------------------------------------------------------------|
|-----------------------------------------------------------------------------|

D5
|----14-17----14-17----14-17----14-17-------|
|-15-------15-------15-------15-------15~~~-|
|-------------------------------------------|
|-------------------------------------------|
|-------------------------------------------|
|-------------------------------------------|



OUTRO
Lead 1a
/–-3–- /–-3-- /–-3-- /–-3-– /–-3-– /–-3-– 4x
|-------------------------------------------------------13b15-|
|-18p15p11-18p15p11-18p15p11-18p15p11-18p15p11-18p15p11-------|
|-------------------------------------------------------------|
|-------------------------------------------------------------|
|-------------------------------------------------------------|
|-------------------------------------------------------------|
Môžete použiť aj druhý spôsob (Lead 1b)

|-–13b15-13-13b15–--|
|-------------------|
|-------------------|
|-------------------|
|-------------------|
|-------------------|



Stupnica G (bluesový modus – pentatonika)

e|-----|-----|--3--|-–---|-–---|-–6--|––––-
B|-----|-----|--3--|-–---|-–---|-–6--|–––-
G|-----|-----|--3--|-–---|-–5--|-–---|––-
D|-----|-----|--3--|-–---|-–5--|-–---|–-
A|-----|-----|--3--|-–---|-–5--|-–---|–
E|-----|-----|--3--|-–---|–––--|-–6--|


 
»
Tvoje obľúbené položky
Tvoje obľúbené položky
»
Nové albumy interpreta
Nové albumy interpreta
LP Olympic Souhvezdi silencu /vinyl/

Souhvezdi
silencu /vinyl/
Olympic

CD Olympic Souhvezdi silencu
Souhvezdi
silencu
3xCD Various 80.leta-50 duvodu pro mit
80.leta-50
duvodu pro mit
4xDVD Olympic Olympic 50
Olympic 50
5xCD Olympic 50 / hity - singly - rarity
50 / hity -
singly - rarity
14xCD Olympic Olympic - zlata edice 14 cd
Olympic - zlata
edice 14 cd
»
Najnovšie videá
Najnovšie videá
»
Najnavštevovanejšie piesne
Najnavštevovanejšie piesne
Prázdnej dům - akordy a text

Jasná Zpráva -100% presne - akordy a text

Dávno - taby

Slzy tvý mámy - akordy a text

Jasná zpráva - akordy a text

Okno mé lásky - akordy a text

Dej mi víc své lásky - akordy a text

Jasná zpráva - akordy a text

Vzpomínky založím - akordy a text

Santa Maria - akordy a text

viac




home | interpreti | register piesní | cd & dvd shop | pripomienky/nápady | kontakt | ochrana údajov | inzercia
Copyright © Pavol Bacigál, 2000-2013. Všetky práva vyhradené.
TOPlist